ISO-10303-21;
HEADER;
/* Generated by software containing ST-Developer
 * from STEP Tools, Inc. (www.steptools.com) 
 */

FILE_DESCRIPTION(
/* description */ ('PLASSON BACKING FLANGE PVC 40'),
/* implementation_level */ '2;1');

FILE_NAME(
/* name */ 
'C:\\Dropbox\\KIMPROJECTS-Inventor\\99-16-3568-Processing\\PVC Catalog
 2017\\059000\\059000040.ipt.stp',
/* time_stamp */ '2017-12-07T16:06:29+02:00',
/* author */ ('KIM'),
/* organization */ (''),
/* preprocessor_version */ 'ST-DEVELOPER v15.6',
/* originating_system */ 'Autodesk Inventor 2015',
/* authorisation */ '');

FILE_SCHEMA (('AUTOMOTIVE_DESIGN { 1 0 10303 214 3 1 1 }'));
ENDSEC;

DATA;
#10=MECHANICAL_DESIGN_GEOMETRIC_PRESENTATION_REPRESENTATION('',(#13),#239);
#11=SHAPE_REPRESENTATION_RELATIONSHIP('SRR','None',#248,#12);
#12=ADVANCED_BREP_SHAPE_REPRESENTATION($,(#14),#238);
#13=STYLED_ITEM('',(#257),#14);
#14=MANIFOLD_SOLID_BREP('Solid1',#139);
#15=CONICAL_SURFACE('',#156,69.3,5.33215888165958);
#16=PLANE('',#153);
#17=PLANE('',#158);
#18=FACE_BOUND('',#43,.T.);
#19=FACE_BOUND('',#45,.T.);
#20=FACE_BOUND('',#47,.T.);
#21=FACE_BOUND('',#49,.T.);
#22=FACE_BOUND('',#51,.T.);
#23=FACE_BOUND('',#52,.T.);
#24=FACE_BOUND('',#53,.T.);
#25=FACE_BOUND('',#54,.T.);
#26=FACE_BOUND('',#55,.T.);
#27=FACE_BOUND('',#57,.T.);
#28=FACE_BOUND('',#59,.T.);
#29=FACE_BOUND('',#60,.T.);
#30=FACE_BOUND('',#61,.T.);
#31=FACE_BOUND('',#62,.T.);
#32=FACE_BOUND('',#63,.T.);
#33=FACE_BOUND('',#65,.T.);
#34=FACE_OUTER_BOUND('',#42,.T.);
#35=FACE_OUTER_BOUND('',#44,.T.);
#36=FACE_OUTER_BOUND('',#46,.T.);
#37=FACE_OUTER_BOUND('',#48,.T.);
#38=FACE_OUTER_BOUND('',#50,.T.);
#39=FACE_OUTER_BOUND('',#56,.T.);
#40=FACE_OUTER_BOUND('',#58,.T.);
#41=FACE_OUTER_BOUND('',#64,.T.);
#42=EDGE_LOOP('',(#102));
#43=EDGE_LOOP('',(#103));
#44=EDGE_LOOP('',(#104));
#45=EDGE_LOOP('',(#105));
#46=EDGE_LOOP('',(#106));
#47=EDGE_LOOP('',(#107));
#48=EDGE_LOOP('',(#108));
#49=EDGE_LOOP('',(#109));
#50=EDGE_LOOP('',(#110));
#51=EDGE_LOOP('',(#111));
#52=EDGE_LOOP('',(#112));
#53=EDGE_LOOP('',(#113));
#54=EDGE_LOOP('',(#114));
#55=EDGE_LOOP('',(#115));
#56=EDGE_LOOP('',(#116));
#57=EDGE_LOOP('',(#117));
#58=EDGE_LOOP('',(#118));
#59=EDGE_LOOP('',(#119));
#60=EDGE_LOOP('',(#120));
#61=EDGE_LOOP('',(#121));
#62=EDGE_LOOP('',(#122));
#63=EDGE_LOOP('',(#123));
#64=EDGE_LOOP('',(#124));
#65=EDGE_LOOP('',(#125));
#66=CIRCLE('',#142,9.);
#67=CIRCLE('',#143,9.);
#68=CIRCLE('',#145,9.);
#69=CIRCLE('',#146,9.);
#70=CIRCLE('',#148,9.);
#71=CIRCLE('',#149,9.);
#72=CIRCLE('',#151,9.);
#73=CIRCLE('',#152,9.);
#74=CIRCLE('',#154,70.);
#75=CIRCLE('',#155,27.);
#76=CIRCLE('',#157,68.6);
#77=CIRCLE('',#159,27.);
#78=VERTEX_POINT('',#205);
#79=VERTEX_POINT('',#207);
#80=VERTEX_POINT('',#210);
#81=VERTEX_POINT('',#212);
#82=VERTEX_POINT('',#215);
#83=VERTEX_POINT('',#217);
#84=VERTEX_POINT('',#220);
#85=VERTEX_POINT('',#222);
#86=VERTEX_POINT('',#225);
#87=VERTEX_POINT('',#227);
#88=VERTEX_POINT('',#230);
#89=VERTEX_POINT('',#233);
#90=EDGE_CURVE('',#78,#78,#66,.T.);
#91=EDGE_CURVE('',#79,#79,#67,.T.);
#92=EDGE_CURVE('',#80,#80,#68,.T.);
#93=EDGE_CURVE('',#81,#81,#69,.T.);
#94=EDGE_CURVE('',#82,#82,#70,.T.);
#95=EDGE_CURVE('',#83,#83,#71,.T.);
#96=EDGE_CURVE('',#84,#84,#72,.T.);
#97=EDGE_CURVE('',#85,#85,#73,.T.);
#98=EDGE_CURVE('',#86,#86,#74,.T.);
#99=EDGE_CURVE('',#87,#87,#75,.T.);
#100=EDGE_CURVE('',#88,#88,#76,.T.);
#101=EDGE_CURVE('',#89,#89,#77,.T.);
#102=ORIENTED_EDGE('',*,*,#90,.F.);
#103=ORIENTED_EDGE('',*,*,#91,.F.);
#104=ORIENTED_EDGE('',*,*,#92,.F.);
#105=ORIENTED_EDGE('',*,*,#93,.F.);
#106=ORIENTED_EDGE('',*,*,#94,.F.);
#107=ORIENTED_EDGE('',*,*,#95,.F.);
#108=ORIENTED_EDGE('',*,*,#96,.F.);
#109=ORIENTED_EDGE('',*,*,#97,.F.);
#110=ORIENTED_EDGE('',*,*,#98,.F.);
#111=ORIENTED_EDGE('',*,*,#91,.T.);
#112=ORIENTED_EDGE('',*,*,#93,.T.);
#113=ORIENTED_EDGE('',*,*,#95,.T.);
#114=ORIENTED_EDGE('',*,*,#97,.T.);
#115=ORIENTED_EDGE('',*,*,#99,.T.);
#116=ORIENTED_EDGE('',*,*,#100,.F.);
#117=ORIENTED_EDGE('',*,*,#98,.T.);
#118=ORIENTED_EDGE('',*,*,#100,.T.);
#119=ORIENTED_EDGE('',*,*,#90,.T.);
#120=ORIENTED_EDGE('',*,*,#92,.T.);
#121=ORIENTED_EDGE('',*,*,#94,.T.);
#122=ORIENTED_EDGE('',*,*,#96,.T.);
#123=ORIENTED_EDGE('',*,*,#101,.F.);
#124=ORIENTED_EDGE('',*,*,#99,.F.);
#125=ORIENTED_EDGE('',*,*,#101,.T.);
#126=CYLINDRICAL_SURFACE('',#141,9.);
#127=CYLINDRICAL_SURFACE('',#144,9.);
#128=CYLINDRICAL_SURFACE('',#147,9.);
#129=CYLINDRICAL_SURFACE('',#150,9.);
#130=CYLINDRICAL_SURFACE('',#160,27.);
#131=ADVANCED_FACE('',(#34,#18),#126,.F.);
#132=ADVANCED_FACE('',(#35,#19),#127,.F.);
#133=ADVANCED_FACE('',(#36,#20),#128,.F.);
#134=ADVANCED_FACE('',(#37,#21),#129,.F.);
#135=ADVANCED_FACE('',(#38,#22,#23,#24,#25,#26),#16,.T.);
#136=ADVANCED_FACE('',(#39,#27),#15,.T.);
#137=ADVANCED_FACE('',(#40,#28,#29,#30,#31,#32),#17,.T.);
#138=ADVANCED_FACE('',(#41,#33),#130,.F.);
#139=CLOSED_SHELL('',(#131,#132,#133,#134,#135,#136,#137,#138));
#140=AXIS2_PLACEMENT_3D('placement',#203,#161,#162);
#141=AXIS2_PLACEMENT_3D('',#204,#163,#164);
#142=AXIS2_PLACEMENT_3D('',#206,#165,#166);
#143=AXIS2_PLACEMENT_3D('',#208,#167,#168);
#144=AXIS2_PLACEMENT_3D('',#209,#169,#170);
#145=AXIS2_PLACEMENT_3D('',#211,#171,#172);
#146=AXIS2_PLACEMENT_3D('',#213,#173,#174);
#147=AXIS2_PLACEMENT_3D('',#214,#175,#176);
#148=AXIS2_PLACEMENT_3D('',#216,#177,#178);
#149=AXIS2_PLACEMENT_3D('',#218,#179,#180);
#150=AXIS2_PLACEMENT_3D('',#219,#181,#182);
#151=AXIS2_PLACEMENT_3D('',#221,#183,#184);
#152=AXIS2_PLACEMENT_3D('',#223,#185,#186);
#153=AXIS2_PLACEMENT_3D('',#224,#187,#188);
#154=AXIS2_PLACEMENT_3D('',#226,#189,#190);
#155=AXIS2_PLACEMENT_3D('',#228,#191,#192);
#156=AXIS2_PLACEMENT_3D('',#229,#193,#194);
#157=AXIS2_PLACEMENT_3D('',#231,#195,#196);
#158=AXIS2_PLACEMENT_3D('',#232,#197,#198);
#159=AXIS2_PLACEMENT_3D('',#234,#199,#200);
#160=AXIS2_PLACEMENT_3D('',#235,#201,#202);
#161=DIRECTION('axis',(0.,0.,1.));
#162=DIRECTION('refdir',(1.,0.,0.));
#163=DIRECTION('center_axis',(-1.,0.,0.));
#164=DIRECTION('ref_axis',(0.,-1.,-1.83697019872103E-16));
#165=DIRECTION('center_axis',(1.,0.,0.));
#166=DIRECTION('ref_axis',(0.,-1.,-1.83697019872103E-16));
#167=DIRECTION('center_axis',(-1.,0.,0.));
#168=DIRECTION('ref_axis',(0.,-1.,-1.83697019872103E-16));
#169=DIRECTION('center_axis',(-1.,0.,0.));
#170=DIRECTION('ref_axis',(0.,1.22464679914735E-16,-1.));
#171=DIRECTION('center_axis',(1.,0.,0.));
#172=DIRECTION('ref_axis',(0.,1.22464679914735E-16,-1.));
#173=DIRECTION('center_axis',(-1.,0.,0.));
#174=DIRECTION('ref_axis',(0.,1.22464679914735E-16,-1.));
#175=DIRECTION('center_axis',(-1.,0.,0.));
#176=DIRECTION('ref_axis',(0.,1.,6.12323399573677E-17));
#177=DIRECTION('center_axis',(1.,0.,0.));
#178=DIRECTION('ref_axis',(0.,1.,6.12323399573677E-17));
#179=DIRECTION('center_axis',(-1.,0.,0.));
#180=DIRECTION('ref_axis',(0.,1.,6.12323399573677E-17));
#181=DIRECTION('center_axis',(-1.,0.,0.));
#182=DIRECTION('ref_axis',(0.,0.,1.));
#183=DIRECTION('center_axis',(1.,0.,0.));
#184=DIRECTION('ref_axis',(0.,0.,1.));
#185=DIRECTION('center_axis',(-1.,0.,0.));
#186=DIRECTION('ref_axis',(0.,0.,1.));
#187=DIRECTION('center_axis',(1.,0.,0.));
#188=DIRECTION('ref_axis',(0.,0.,-1.));
#189=DIRECTION('center_axis',(-1.,0.,0.));
#190=DIRECTION('ref_axis',(0.,0.,1.));
#191=DIRECTION('center_axis',(-1.,0.,0.));
#192=DIRECTION('ref_axis',(0.,0.,1.));
#193=DIRECTION('center_axis',(1.,0.,0.));
#194=DIRECTION('ref_axis',(0.,-1.,0.));
#195=DIRECTION('center_axis',(-1.,0.,0.));
#196=DIRECTION('ref_axis',(0.,0.,1.));
#197=DIRECTION('center_axis',(-1.,0.,0.));
#198=DIRECTION('ref_axis',(0.,0.,1.));
#199=DIRECTION('center_axis',(-1.,0.,0.));
#200=DIRECTION('ref_axis',(0.,0.,1.));
#201=DIRECTION('center_axis',(-1.,0.,0.));
#202=DIRECTION('ref_axis',(0.,-1.,0.));
#203=CARTESIAN_POINT('',(0.,0.,0.));
#204=CARTESIAN_POINT('Origin',(7.5,-9.18485099360515E-15,50.));
#205=CARTESIAN_POINT('',(-7.5,8.99999999999999,50.));
#206=CARTESIAN_POINT('Origin',(-7.5,-9.18485099360515E-15,50.));
#207=CARTESIAN_POINT('',(7.5,8.99999999999999,50.));
#208=CARTESIAN_POINT('Origin',(7.5,-9.18485099360515E-15,50.));
#209=CARTESIAN_POINT('Origin',(7.5,-50.,-6.12323399573677E-15));
#210=CARTESIAN_POINT('',(-7.5,-50.,8.99999999999999));
#211=CARTESIAN_POINT('Origin',(-7.5,-50.,-6.12323399573677E-15));
#212=CARTESIAN_POINT('',(7.5,-50.,8.99999999999999));
#213=CARTESIAN_POINT('Origin',(7.5,-50.,-6.12323399573677E-15));
#214=CARTESIAN_POINT('Origin',(7.5,3.06161699786838E-15,-50.));
#215=CARTESIAN_POINT('',(-7.5,-9.,-50.));
#216=CARTESIAN_POINT('Origin',(-7.5,3.06161699786838E-15,-50.));
#217=CARTESIAN_POINT('',(7.5,-9.,-50.));
#218=CARTESIAN_POINT('Origin',(7.5,3.06161699786838E-15,-50.));
#219=CARTESIAN_POINT('Origin',(7.5,50.,0.));
#220=CARTESIAN_POINT('',(-7.5,50.,-9.));
#221=CARTESIAN_POINT('Origin',(-7.5,50.,0.));
#222=CARTESIAN_POINT('',(7.5,50.,-9.));
#223=CARTESIAN_POINT('Origin',(7.5,50.,0.));
#224=CARTESIAN_POINT('Origin',(7.5,-70.,0.));
#225=CARTESIAN_POINT('',(7.5,-70.,0.));
#226=CARTESIAN_POINT('Origin',(7.5,0.,0.));
#227=CARTESIAN_POINT('',(7.5,-27.,0.));
#228=CARTESIAN_POINT('Origin',(7.5,0.,0.));
#229=CARTESIAN_POINT('Origin',(3.33066907387547E-15,0.,0.));
#230=CARTESIAN_POINT('',(-7.49999999999999,-68.6,0.));
#231=CARTESIAN_POINT('Origin',(-7.49999999999999,0.,0.));
#232=CARTESIAN_POINT('Origin',(-7.5,-27.,0.));
#233=CARTESIAN_POINT('',(-7.5,-27.,0.));
#234=CARTESIAN_POINT('Origin',(-7.5,0.,0.));
#235=CARTESIAN_POINT('Origin',(0.,0.,0.));
#236=UNCERTAINTY_MEASURE_WITH_UNIT(LENGTH_MEASURE(0.01),#240,
'DISTANCE_ACCURACY_VALUE',
'Maximum model space distance between geometric entities at asserted c
onnectivities');
#237=UNCERTAINTY_MEASURE_WITH_UNIT(LENGTH_MEASURE(1.E-6),#240,
'DISTANCE_ACCURACY_VALUE',
'Maximum model space distance between geometric entities at asserted c
onnectivities');
#238=(
GEOMETRIC_REPRESENTATION_CONTEXT(3)
GLOBAL_UNCERTAINTY_ASSIGNED_CONTEXT((#236))
GLOBAL_UNIT_ASSIGNED_CONTEXT((#240,#243,#241))
REPRESENTATION_CONTEXT('','3D')
);
#239=(
GEOMETRIC_REPRESENTATION_CONTEXT(3)
GLOBAL_UNCERTAINTY_ASSIGNED_CONTEXT((#237))
GLOBAL_UNIT_ASSIGNED_CONTEXT((#240,#243,#241))
REPRESENTATION_CONTEXT('','3D')
);
#240=(
LENGTH_UNIT()
NAMED_UNIT(*)
SI_UNIT(.MILLI.,.METRE.)
);
#241=(
NAMED_UNIT(*)
SI_UNIT($,.STERADIAN.)
SOLID_ANGLE_UNIT()
);
#242=DIMENSIONAL_EXPONENTS(0.,0.,0.,0.,0.,0.,0.);
#243=(
CONVERSION_BASED_UNIT('degree',#245)
NAMED_UNIT(#242)
PLANE_ANGLE_UNIT()
);
#244=(
NAMED_UNIT(*)
PLANE_ANGLE_UNIT()
SI_UNIT($,.RADIAN.)
);
#245=PLANE_ANGLE_MEASURE_WITH_UNIT(PLANE_ANGLE_MEASURE(0.01745329252),#244);
#246=SHAPE_DEFINITION_REPRESENTATION(#247,#248);
#247=PRODUCT_DEFINITION_SHAPE('',$,#250);
#248=SHAPE_REPRESENTATION('',(#140),#238);
#249=PRODUCT_DEFINITION_CONTEXT('part definition',#254,'design');
#250=PRODUCT_DEFINITION('059000040','059000040',#251,#249);
#251=PRODUCT_DEFINITION_FORMATION('',$,#256);
#252=PRODUCT_RELATED_PRODUCT_CATEGORY('059000040','059000040',(#256));
#253=APPLICATION_PROTOCOL_DEFINITION('international standard',
'automotive_design',2009,#254);
#254=APPLICATION_CONTEXT(
'Core Data for Automotive Mechanical Design Process');
#255=PRODUCT_CONTEXT('part definition',#254,'mechanical');
#256=PRODUCT('059000040','059000040',$,(#255));
#257=PRESENTATION_STYLE_ASSIGNMENT((#258));
#258=SURFACE_STYLE_USAGE(.BOTH.,#259);
#259=SURFACE_SIDE_STYLE($,(#260));
#260=SURFACE_STYLE_FILL_AREA(#261);
#261=FILL_AREA_STYLE($,(#262));
#262=FILL_AREA_STYLE_COLOUR($,#263);
#263=COLOUR_RGB('',0.749019607843137,0.749019607843137,0.749019607843137);
ENDSEC;
END-ISO-10303-21;
