ISO-10303-21;
HEADER;
/* Generated by software containing ST-Developer
 * from STEP Tools, Inc. (www.steptools.com) 
 */

FILE_DESCRIPTION(
/* description */ ('PLASSON SOCKET NIPPLE THR-CE 90(75)-2.1/2"'),
/* implementation_level */ '2;1');

FILE_NAME(
/* name */ 
'C:\\Dropbox\\KIMPROJECTS-Inventor\\99-16-3568-Processing\\PVC Catalog
 2017\\052102\\052102075025.ipt.stp',
/* time_stamp */ '2017-12-07T16:01:58+02:00',
/* author */ ('KIM'),
/* organization */ (''),
/* preprocessor_version */ 'ST-DEVELOPER v15.6',
/* originating_system */ 'Autodesk Inventor 2015',
/* authorisation */ '');

FILE_SCHEMA (('AUTOMOTIVE_DESIGN { 1 0 10303 214 3 1 1 }'));
ENDSEC;

DATA;
#10=MECHANICAL_DESIGN_GEOMETRIC_PRESENTATION_REPRESENTATION('',(#13),#511);
#11=SHAPE_REPRESENTATION_RELATIONSHIP('SRR','None',#520,#12);
#12=ADVANCED_BREP_SHAPE_REPRESENTATION($,(#14),#510);
#13=STYLED_ITEM('',(#529),#14);
#14=MANIFOLD_SOLID_BREP('Solid1',#301);
#15=CYLINDRICAL_SURFACE('',#314,30.0736);
#16=CYLINDRICAL_SURFACE('',#318,37.592);
#17=CYLINDRICAL_SURFACE('',#325,37.5);
#18=CYLINDRICAL_SURFACE('',#329,45.);
#19=CYLINDRICAL_SURFACE('',#333,35.625);
#20=FACE_BOUND('',#81,.T.);
#21=FACE_BOUND('',#83,.T.);
#22=FACE_BOUND('',#85,.T.);
#23=FACE_BOUND('',#87,.T.);
#24=FACE_BOUND('',#89,.T.);
#25=FACE_BOUND('',#91,.T.);
#26=FACE_BOUND('',#93,.T.);
#27=FACE_BOUND('',#95,.T.);
#28=FACE_BOUND('',#97,.T.);
#29=FACE_BOUND('',#99,.T.);
#30=FACE_BOUND('',#101,.T.);
#31=FACE_BOUND('',#103,.T.);
#32=FACE_BOUND('',#105,.T.);
#33=FACE_BOUND('',#107,.T.);
#34=FACE_BOUND('',#109,.T.);
#35=CIRCLE('',#310,30.0736);
#36=CIRCLE('',#311,30.8236);
#37=CIRCLE('',#313,36.842);
#38=CIRCLE('',#315,30.0736);
#39=CIRCLE('',#317,37.592);
#40=CIRCLE('',#319,37.592);
#41=CIRCLE('',#321,38.25);
#42=CIRCLE('',#322,37.5);
#43=CIRCLE('',#324,44.25);
#44=CIRCLE('',#326,37.5);
#45=CIRCLE('',#328,45.);
#46=CIRCLE('',#330,45.);
#47=CIRCLE('',#332,35.625);
#48=CIRCLE('',#334,35.625);
#49=TOROIDAL_SURFACE('',#309,30.8236,0.75);
#50=TOROIDAL_SURFACE('',#316,36.842,0.75);
#51=TOROIDAL_SURFACE('',#320,38.25,0.75);
#52=TOROIDAL_SURFACE('',#327,44.25,0.75);
#53=FACE_OUTER_BOUND('',#74,.T.);
#54=FACE_OUTER_BOUND('',#75,.T.);
#55=FACE_OUTER_BOUND('',#76,.T.);
#56=FACE_OUTER_BOUND('',#77,.T.);
#57=FACE_OUTER_BOUND('',#78,.T.);
#58=FACE_OUTER_BOUND('',#79,.T.);
#59=FACE_OUTER_BOUND('',#80,.T.);
#60=FACE_OUTER_BOUND('',#82,.T.);
#61=FACE_OUTER_BOUND('',#84,.T.);
#62=FACE_OUTER_BOUND('',#86,.T.);
#63=FACE_OUTER_BOUND('',#88,.T.);
#64=FACE_OUTER_BOUND('',#90,.T.);
#65=FACE_OUTER_BOUND('',#92,.T.);
#66=FACE_OUTER_BOUND('',#94,.T.);
#67=FACE_OUTER_BOUND('',#96,.T.);
#68=FACE_OUTER_BOUND('',#98,.T.);
#69=FACE_OUTER_BOUND('',#100,.T.);
#70=FACE_OUTER_BOUND('',#102,.T.);
#71=FACE_OUTER_BOUND('',#104,.T.);
#72=FACE_OUTER_BOUND('',#106,.T.);
#73=FACE_OUTER_BOUND('',#108,.T.);
#74=EDGE_LOOP('',(#204,#205,#206,#207));
#75=EDGE_LOOP('',(#208,#209,#210,#211));
#76=EDGE_LOOP('',(#212,#213,#214,#215));
#77=EDGE_LOOP('',(#216,#217,#218,#219));
#78=EDGE_LOOP('',(#220,#221,#222,#223));
#79=EDGE_LOOP('',(#224,#225,#226,#227));
#80=EDGE_LOOP('',(#228));
#81=EDGE_LOOP('',(#229));
#82=EDGE_LOOP('',(#230));
#83=EDGE_LOOP('',(#231));
#84=EDGE_LOOP('',(#232));
#85=EDGE_LOOP('',(#233));
#86=EDGE_LOOP('',(#234));
#87=EDGE_LOOP('',(#235));
#88=EDGE_LOOP('',(#236));
#89=EDGE_LOOP('',(#237));
#90=EDGE_LOOP('',(#238));
#91=EDGE_LOOP('',(#239));
#92=EDGE_LOOP('',(#240));
#93=EDGE_LOOP('',(#241));
#94=EDGE_LOOP('',(#242));
#95=EDGE_LOOP('',(#243));
#96=EDGE_LOOP('',(#244));
#97=EDGE_LOOP('',(#245));
#98=EDGE_LOOP('',(#246));
#99=EDGE_LOOP('',(#247));
#100=EDGE_LOOP('',(#248));
#101=EDGE_LOOP('',(#249));
#102=EDGE_LOOP('',(#250));
#103=EDGE_LOOP('',(#251));
#104=EDGE_LOOP('',(#252));
#105=EDGE_LOOP('',(#253));
#106=EDGE_LOOP('',(#254,#255,#256,#257,#258,#259));
#107=EDGE_LOOP('',(#260));
#108=EDGE_LOOP('',(#261,#262,#263,#264,#265,#266));
#109=EDGE_LOOP('',(#267));
#110=LINE('',#432,#128);
#111=LINE('',#434,#129);
#112=LINE('',#436,#130);
#113=LINE('',#437,#131);
#114=LINE('',#440,#132);
#115=LINE('',#442,#133);
#116=LINE('',#443,#134);
#117=LINE('',#446,#135);
#118=LINE('',#448,#136);
#119=LINE('',#449,#137);
#120=LINE('',#453,#138);
#121=LINE('',#455,#139);
#122=LINE('',#457,#140);
#123=LINE('',#458,#141);
#124=LINE('',#460,#142);
#125=LINE('',#461,#143);
#126=LINE('',#463,#144);
#127=LINE('',#464,#145);
#128=VECTOR('',#342,54.8482755730145);
#129=VECTOR('',#343,20.);
#130=VECTOR('',#344,54.8482755730145);
#131=VECTOR('',#345,20.);
#132=VECTOR('',#348,54.8482755730145);
#133=VECTOR('',#349,20.);
#134=VECTOR('',#350,54.8482755730145);
#135=VECTOR('',#353,54.8482755730145);
#136=VECTOR('',#354,20.);
#137=VECTOR('',#355,54.8482755730145);
#138=VECTOR('',#358,54.8482755730145);
#139=VECTOR('',#359,20.);
#140=VECTOR('',#360,54.8482755730145);
#141=VECTOR('',#361,20.);
#142=VECTOR('',#364,54.8482755730145);
#143=VECTOR('',#365,54.8482755730145);
#144=VECTOR('',#368,54.8482755730145);
#145=VECTOR('',#369,54.8482755730145);
#146=VERTEX_POINT('',#430);
#147=VERTEX_POINT('',#431);
#148=VERTEX_POINT('',#433);
#149=VERTEX_POINT('',#435);
#150=VERTEX_POINT('',#439);
#151=VERTEX_POINT('',#441);
#152=VERTEX_POINT('',#445);
#153=VERTEX_POINT('',#447);
#154=VERTEX_POINT('',#451);
#155=VERTEX_POINT('',#452);
#156=VERTEX_POINT('',#454);
#157=VERTEX_POINT('',#456);
#158=VERTEX_POINT('',#466);
#159=VERTEX_POINT('',#468);
#160=VERTEX_POINT('',#471);
#161=VERTEX_POINT('',#474);
#162=VERTEX_POINT('',#477);
#163=VERTEX_POINT('',#480);
#164=VERTEX_POINT('',#483);
#165=VERTEX_POINT('',#485);
#166=VERTEX_POINT('',#488);
#167=VERTEX_POINT('',#491);
#168=VERTEX_POINT('',#494);
#169=VERTEX_POINT('',#497);
#170=VERTEX_POINT('',#500);
#171=VERTEX_POINT('',#503);
#172=EDGE_CURVE('',#146,#147,#110,.T.);
#173=EDGE_CURVE('',#148,#147,#111,.T.);
#174=EDGE_CURVE('',#148,#149,#112,.T.);
#175=EDGE_CURVE('',#149,#146,#113,.T.);
#176=EDGE_CURVE('',#147,#150,#114,.T.);
#177=EDGE_CURVE('',#151,#150,#115,.T.);
#178=EDGE_CURVE('',#151,#148,#116,.T.);
#179=EDGE_CURVE('',#150,#152,#117,.T.);
#180=EDGE_CURVE('',#153,#152,#118,.T.);
#181=EDGE_CURVE('',#153,#151,#119,.T.);
#182=EDGE_CURVE('',#154,#155,#120,.T.);
#183=EDGE_CURVE('',#156,#155,#121,.T.);
#184=EDGE_CURVE('',#156,#157,#122,.T.);
#185=EDGE_CURVE('',#157,#154,#123,.T.);
#186=EDGE_CURVE('',#155,#146,#124,.T.);
#187=EDGE_CURVE('',#149,#156,#125,.T.);
#188=EDGE_CURVE('',#152,#154,#126,.T.);
#189=EDGE_CURVE('',#157,#153,#127,.T.);
#190=EDGE_CURVE('',#158,#158,#35,.T.);
#191=EDGE_CURVE('',#159,#159,#36,.T.);
#192=EDGE_CURVE('',#160,#160,#37,.T.);
#193=EDGE_CURVE('',#161,#161,#38,.T.);
#194=EDGE_CURVE('',#162,#162,#39,.T.);
#195=EDGE_CURVE('',#163,#163,#40,.T.);
#196=EDGE_CURVE('',#164,#164,#41,.T.);
#197=EDGE_CURVE('',#165,#165,#42,.T.);
#198=EDGE_CURVE('',#166,#166,#43,.T.);
#199=EDGE_CURVE('',#167,#167,#44,.T.);
#200=EDGE_CURVE('',#168,#168,#45,.T.);
#201=EDGE_CURVE('',#169,#169,#46,.T.);
#202=EDGE_CURVE('',#170,#170,#47,.T.);
#203=EDGE_CURVE('',#171,#171,#48,.T.);
#204=ORIENTED_EDGE('',*,*,#172,.T.);
#205=ORIENTED_EDGE('',*,*,#173,.F.);
#206=ORIENTED_EDGE('',*,*,#174,.T.);
#207=ORIENTED_EDGE('',*,*,#175,.T.);
#208=ORIENTED_EDGE('',*,*,#176,.T.);
#209=ORIENTED_EDGE('',*,*,#177,.F.);
#210=ORIENTED_EDGE('',*,*,#178,.T.);
#211=ORIENTED_EDGE('',*,*,#173,.T.);
#212=ORIENTED_EDGE('',*,*,#179,.T.);
#213=ORIENTED_EDGE('',*,*,#180,.F.);
#214=ORIENTED_EDGE('',*,*,#181,.T.);
#215=ORIENTED_EDGE('',*,*,#177,.T.);
#216=ORIENTED_EDGE('',*,*,#182,.T.);
#217=ORIENTED_EDGE('',*,*,#183,.F.);
#218=ORIENTED_EDGE('',*,*,#184,.T.);
#219=ORIENTED_EDGE('',*,*,#185,.T.);
#220=ORIENTED_EDGE('',*,*,#186,.T.);
#221=ORIENTED_EDGE('',*,*,#175,.F.);
#222=ORIENTED_EDGE('',*,*,#187,.T.);
#223=ORIENTED_EDGE('',*,*,#183,.T.);
#224=ORIENTED_EDGE('',*,*,#188,.T.);
#225=ORIENTED_EDGE('',*,*,#185,.F.);
#226=ORIENTED_EDGE('',*,*,#189,.T.);
#227=ORIENTED_EDGE('',*,*,#180,.T.);
#228=ORIENTED_EDGE('',*,*,#190,.T.);
#229=ORIENTED_EDGE('',*,*,#191,.T.);
#230=ORIENTED_EDGE('',*,*,#192,.F.);
#231=ORIENTED_EDGE('',*,*,#191,.F.);
#232=ORIENTED_EDGE('',*,*,#193,.T.);
#233=ORIENTED_EDGE('',*,*,#190,.F.);
#234=ORIENTED_EDGE('',*,*,#192,.T.);
#235=ORIENTED_EDGE('',*,*,#194,.T.);
#236=ORIENTED_EDGE('',*,*,#195,.F.);
#237=ORIENTED_EDGE('',*,*,#194,.F.);
#238=ORIENTED_EDGE('',*,*,#196,.T.);
#239=ORIENTED_EDGE('',*,*,#197,.T.);
#240=ORIENTED_EDGE('',*,*,#198,.F.);
#241=ORIENTED_EDGE('',*,*,#196,.F.);
#242=ORIENTED_EDGE('',*,*,#199,.F.);
#243=ORIENTED_EDGE('',*,*,#197,.F.);
#244=ORIENTED_EDGE('',*,*,#200,.T.);
#245=ORIENTED_EDGE('',*,*,#198,.T.);
#246=ORIENTED_EDGE('',*,*,#201,.T.);
#247=ORIENTED_EDGE('',*,*,#200,.F.);
#248=ORIENTED_EDGE('',*,*,#199,.T.);
#249=ORIENTED_EDGE('',*,*,#202,.F.);
#250=ORIENTED_EDGE('',*,*,#203,.F.);
#251=ORIENTED_EDGE('',*,*,#202,.T.);
#252=ORIENTED_EDGE('',*,*,#203,.T.);
#253=ORIENTED_EDGE('',*,*,#193,.F.);
#254=ORIENTED_EDGE('',*,*,#186,.F.);
#255=ORIENTED_EDGE('',*,*,#182,.F.);
#256=ORIENTED_EDGE('',*,*,#188,.F.);
#257=ORIENTED_EDGE('',*,*,#179,.F.);
#258=ORIENTED_EDGE('',*,*,#176,.F.);
#259=ORIENTED_EDGE('',*,*,#172,.F.);
#260=ORIENTED_EDGE('',*,*,#195,.T.);
#261=ORIENTED_EDGE('',*,*,#174,.F.);
#262=ORIENTED_EDGE('',*,*,#178,.F.);
#263=ORIENTED_EDGE('',*,*,#181,.F.);
#264=ORIENTED_EDGE('',*,*,#189,.F.);
#265=ORIENTED_EDGE('',*,*,#184,.F.);
#266=ORIENTED_EDGE('',*,*,#187,.F.);
#267=ORIENTED_EDGE('',*,*,#201,.F.);
#268=PLANE('',#303);
#269=PLANE('',#304);
#270=PLANE('',#305);
#271=PLANE('',#306);
#272=PLANE('',#307);
#273=PLANE('',#308);
#274=PLANE('',#312);
#275=PLANE('',#323);
#276=PLANE('',#331);
#277=PLANE('',#335);
#278=PLANE('',#336);
#279=PLANE('',#337);
#280=ADVANCED_FACE('',(#53),#268,.T.);
#281=ADVANCED_FACE('',(#54),#269,.T.);
#282=ADVANCED_FACE('',(#55),#270,.T.);
#283=ADVANCED_FACE('',(#56),#271,.T.);
#284=ADVANCED_FACE('',(#57),#272,.T.);
#285=ADVANCED_FACE('',(#58),#273,.T.);
#286=ADVANCED_FACE('',(#59,#20),#49,.T.);
#287=ADVANCED_FACE('',(#60,#21),#274,.T.);
#288=ADVANCED_FACE('',(#61,#22),#15,.F.);
#289=ADVANCED_FACE('',(#62,#23),#50,.T.);
#290=ADVANCED_FACE('',(#63,#24),#16,.T.);
#291=ADVANCED_FACE('',(#64,#25),#51,.T.);
#292=ADVANCED_FACE('',(#65,#26),#275,.T.);
#293=ADVANCED_FACE('',(#66,#27),#17,.F.);
#294=ADVANCED_FACE('',(#67,#28),#52,.T.);
#295=ADVANCED_FACE('',(#68,#29),#18,.T.);
#296=ADVANCED_FACE('',(#69,#30),#276,.T.);
#297=ADVANCED_FACE('',(#70,#31),#19,.F.);
#298=ADVANCED_FACE('',(#71,#32),#277,.T.);
#299=ADVANCED_FACE('',(#72,#33),#278,.T.);
#300=ADVANCED_FACE('',(#73,#34),#279,.T.);
#301=CLOSED_SHELL('',(#280,#281,#282,#283,#284,#285,#286,#287,#288,#289,
#290,#291,#292,#293,#294,#295,#296,#297,#298,#299,#300));
#302=AXIS2_PLACEMENT_3D('placement',#428,#338,#339);
#303=AXIS2_PLACEMENT_3D('',#429,#340,#341);
#304=AXIS2_PLACEMENT_3D('',#438,#346,#347);
#305=AXIS2_PLACEMENT_3D('',#444,#351,#352);
#306=AXIS2_PLACEMENT_3D('',#450,#356,#357);
#307=AXIS2_PLACEMENT_3D('',#459,#362,#363);
#308=AXIS2_PLACEMENT_3D('',#462,#366,#367);
#309=AXIS2_PLACEMENT_3D('',#465,#370,#371);
#310=AXIS2_PLACEMENT_3D('',#467,#372,#373);
#311=AXIS2_PLACEMENT_3D('',#469,#374,#375);
#312=AXIS2_PLACEMENT_3D('',#470,#376,#377);
#313=AXIS2_PLACEMENT_3D('',#472,#378,#379);
#314=AXIS2_PLACEMENT_3D('',#473,#380,#381);
#315=AXIS2_PLACEMENT_3D('',#475,#382,#383);
#316=AXIS2_PLACEMENT_3D('',#476,#384,#385);
#317=AXIS2_PLACEMENT_3D('',#478,#386,#387);
#318=AXIS2_PLACEMENT_3D('',#479,#388,#389);
#319=AXIS2_PLACEMENT_3D('',#481,#390,#391);
#320=AXIS2_PLACEMENT_3D('',#482,#392,#393);
#321=AXIS2_PLACEMENT_3D('',#484,#394,#395);
#322=AXIS2_PLACEMENT_3D('',#486,#396,#397);
#323=AXIS2_PLACEMENT_3D('',#487,#398,#399);
#324=AXIS2_PLACEMENT_3D('',#489,#400,#401);
#325=AXIS2_PLACEMENT_3D('',#490,#402,#403);
#326=AXIS2_PLACEMENT_3D('',#492,#404,#405);
#327=AXIS2_PLACEMENT_3D('',#493,#406,#407);
#328=AXIS2_PLACEMENT_3D('',#495,#408,#409);
#329=AXIS2_PLACEMENT_3D('',#496,#410,#411);
#330=AXIS2_PLACEMENT_3D('',#498,#412,#413);
#331=AXIS2_PLACEMENT_3D('',#499,#414,#415);
#332=AXIS2_PLACEMENT_3D('',#501,#416,#417);
#333=AXIS2_PLACEMENT_3D('',#502,#418,#419);
#334=AXIS2_PLACEMENT_3D('',#504,#420,#421);
#335=AXIS2_PLACEMENT_3D('',#505,#422,#423);
#336=AXIS2_PLACEMENT_3D('',#506,#424,#425);
#337=AXIS2_PLACEMENT_3D('',#507,#426,#427);
#338=DIRECTION('axis',(0.,0.,1.));
#339=DIRECTION('refdir',(1.,0.,0.));
#340=DIRECTION('center_axis',(5.92115068328431E-16,-0.999993450406666,0.00361927392861262));
#341=DIRECTION('ref_axis',(0.,-0.0036192739286129,-0.999993450406666));
#342=DIRECTION('',(-2.4377827275521E-18,0.00361927392861262,0.999993450406666));
#343=DIRECTION('',(1.,5.92118946466736E-16,0.));
#344=DIRECTION('',(2.4377827275521E-18,-0.00361927392861262,-0.999993450406666));
#345=DIRECTION('',(1.,5.92118946466736E-16,0.));
#346=DIRECTION('center_axis',(2.94201606506476E-16,-0.4968623420379,0.867829368634534));
#347=DIRECTION('ref_axis',(5.82867087928207E-16,-0.867829368634534,-0.4968623420379));
#348=DIRECTION('',(-5.84531452177392E-16,0.867829368634533,0.4968623420379));
#349=DIRECTION('',(1.,5.92118946466736E-16,0.));
#350=DIRECTION('',(5.84531452177392E-16,-0.867829368634533,-0.4968623420379));
#351=DIRECTION('center_axis',(-2.97913461821955E-16,0.503131108368766,0.864210094705921));
#352=DIRECTION('ref_axis',(5.82867087928207E-16,-0.864210094705921,0.503131108368766));
#353=DIRECTION('',(-5.8209366944984E-16,0.864210094705921,-0.503131108368766));
#354=DIRECTION('',(1.,5.92118946466736E-16,0.));
#355=DIRECTION('',(5.8209366944984E-16,-0.864210094705921,0.503131108368766));
#356=DIRECTION('center_axis',(-2.94201606506476E-16,0.4968623420379,-0.867829368634534));
#357=DIRECTION('ref_axis',(-5.82867087928207E-16,0.867829368634534,0.4968623420379));
#358=DIRECTION('',(5.84531452177392E-16,-0.867829368634534,-0.4968623420379));
#359=DIRECTION('',(1.,5.92118946466736E-16,0.));
#360=DIRECTION('',(-5.84531452177392E-16,0.867829368634534,0.4968623420379));
#361=DIRECTION('',(1.,5.92118946466736E-16,0.));
#362=DIRECTION('center_axis',(2.97913461821955E-16,-0.503131108368767,-0.864210094705921));
#363=DIRECTION('ref_axis',(-5.82867087928207E-16,0.864210094705921,-0.503131108368766));
#364=DIRECTION('',(5.8209366944984E-16,-0.864210094705921,0.503131108368767));
#365=DIRECTION('',(-5.8209366944984E-16,0.864210094705921,-0.503131108368767));
#366=DIRECTION('center_axis',(-5.92115068328431E-16,0.999993450406666,-0.00361927392861245));
#367=DIRECTION('ref_axis',(0.,0.00361927392861219,0.999993450406666));
#368=DIRECTION('',(2.43778272755199E-18,-0.00361927392861245,-0.999993450406666));
#369=DIRECTION('',(-2.43778272755199E-18,0.00361927392861245,0.999993450406666));
#370=DIRECTION('center_axis',(-1.,-6.73555739531044E-16,0.));
#371=DIRECTION('ref_axis',(0.,0.,1.));
#372=DIRECTION('center_axis',(-1.,-6.73555739531044E-16,0.));
#373=DIRECTION('ref_axis',(-6.73732782221254E-16,1.,6.12323399573677E-17));
#374=DIRECTION('center_axis',(1.,6.73555739531044E-16,0.));
#375=DIRECTION('ref_axis',(-6.73555739531044E-16,1.,6.12323399573677E-17));
#376=DIRECTION('center_axis',(1.,6.73555739531044E-16,0.));
#377=DIRECTION('ref_axis',(0.,0.,-1.));
#378=DIRECTION('center_axis',(-1.,-6.73555739531044E-16,0.));
#379=DIRECTION('ref_axis',(-6.73555739531044E-16,1.,6.12323399573677E-17));
#380=DIRECTION('center_axis',(-1.,-6.73555739531044E-16,0.));
#381=DIRECTION('ref_axis',(6.51330841113425E-16,-1.,0.));
#382=DIRECTION('center_axis',(-1.,-6.73555739531044E-16,0.));
#383=DIRECTION('ref_axis',(0.,0.,1.));
#384=DIRECTION('center_axis',(-1.,-6.73555739531044E-16,0.));
#385=DIRECTION('ref_axis',(0.,0.,1.));
#386=DIRECTION('center_axis',(1.,6.73555739531044E-16,0.));
#387=DIRECTION('ref_axis',(-6.71886938982291E-16,1.,6.12323399573677E-17));
#388=DIRECTION('center_axis',(-1.,-6.73555739531044E-16,0.));
#389=DIRECTION('ref_axis',(6.51330841113426E-16,-1.,0.));
#390=DIRECTION('center_axis',(-1.,-6.73555739531044E-16,0.));
#391=DIRECTION('ref_axis',(0.,0.,1.));
#392=DIRECTION('center_axis',(-1.,-6.73555739531044E-16,0.));
#393=DIRECTION('ref_axis',(0.,0.,1.));
#394=DIRECTION('center_axis',(-1.,-6.73555739531044E-16,0.));
#395=DIRECTION('ref_axis',(-6.73555739531044E-16,1.,6.12323399573677E-17));
#396=DIRECTION('center_axis',(1.,6.73555739531044E-16,0.));
#397=DIRECTION('ref_axis',(-6.73535301605929E-16,1.,6.12323399573676E-17));
#398=DIRECTION('center_axis',(-1.,-6.73555739531044E-16,0.));
#399=DIRECTION('ref_axis',(0.,0.,1.));
#400=DIRECTION('center_axis',(1.,6.73555739531044E-16,0.));
#401=DIRECTION('ref_axis',(-6.73555739531044E-16,1.,6.12323399573677E-17));
#402=DIRECTION('center_axis',(-1.,-6.73555739531044E-16,0.));
#403=DIRECTION('ref_axis',(6.51330841113425E-16,-1.,0.));
#404=DIRECTION('center_axis',(-1.,-6.73555739531044E-16,0.));
#405=DIRECTION('ref_axis',(0.,0.,1.));
#406=DIRECTION('center_axis',(-1.,-6.73555739531044E-16,0.));
#407=DIRECTION('ref_axis',(0.,0.,1.));
#408=DIRECTION('center_axis',(-1.,-6.73555739531044E-16,0.));
#409=DIRECTION('ref_axis',(-6.72301720467456E-16,1.,6.12323399573677E-17));
#410=DIRECTION('center_axis',(-1.,-6.73555739531044E-16,0.));
#411=DIRECTION('ref_axis',(6.51330841113425E-16,-1.,0.));
#412=DIRECTION('center_axis',(-1.,-6.73555739531044E-16,0.));
#413=DIRECTION('ref_axis',(0.,0.,1.));
#414=DIRECTION('center_axis',(-1.,-6.73555739531044E-16,0.));
#415=DIRECTION('ref_axis',(0.,0.,1.));
#416=DIRECTION('center_axis',(-1.,-6.73555739531044E-16,0.));
#417=DIRECTION('ref_axis',(0.,0.,1.));
#418=DIRECTION('center_axis',(-1.,-6.73555739531044E-16,0.));
#419=DIRECTION('ref_axis',(6.51330841113425E-16,-1.,0.));
#420=DIRECTION('center_axis',(-1.,-6.73555739531044E-16,0.));
#421=DIRECTION('ref_axis',(0.,0.,1.));
#422=DIRECTION('center_axis',(-1.,-6.73555739531044E-16,0.));
#423=DIRECTION('ref_axis',(0.,0.,1.));
#424=DIRECTION('center_axis',(1.,6.73555739531044E-16,0.));
#425=DIRECTION('ref_axis',(0.,0.,-1.));
#426=DIRECTION('center_axis',(-1.,-6.73555739531044E-16,0.));
#427=DIRECTION('ref_axis',(0.,0.,1.));
#428=CARTESIAN_POINT('',(0.,0.,0.));
#429=CARTESIAN_POINT('Origin',(0.500000000000004,-47.4004334274113,27.5958736811663));
#430=CARTESIAN_POINT('',(20.5,-47.5989443612221,-27.2520426579481));
#431=CARTESIAN_POINT('',(20.5,-47.4004334274113,27.5958736811663));
#432=CARTESIAN_POINT('',(20.5,-47.450061160864,13.8838945963877));
#433=CARTESIAN_POINT('',(0.500000000000004,-47.4004334274113,27.5958736811663));
#434=CARTESIAN_POINT('',(0.500000000000004,-47.4004334274113,27.5958736811663));
#435=CARTESIAN_POINT('',(0.500000000000004,-47.5989443612221,-27.2520426579481));
#436=CARTESIAN_POINT('',(0.500000000000004,-47.4004334274113,27.5958736811663));
#437=CARTESIAN_POINT('',(0.500000000000004,-47.5989443612221,-27.2520426579481));
#438=CARTESIAN_POINT('Origin',(0.499999999999971,0.198510933810753,54.8479163391144));
#439=CARTESIAN_POINT('',(20.5,0.198510933810764,54.8479163391144));
#440=CARTESIAN_POINT('',(20.5,-11.7012251564947,48.0349056746274));
#441=CARTESIAN_POINT('',(0.499999999999971,0.198510933810753,54.8479163391144));
#442=CARTESIAN_POINT('',(0.499999999999971,0.198510933810753,54.8479163391144));
#443=CARTESIAN_POINT('',(0.499999999999971,0.198510933810753,54.8479163391144));
#444=CARTESIAN_POINT('Origin',(0.499999999999939,47.5989443612221,27.2520426579481));
#445=CARTESIAN_POINT('',(20.5,47.5989443612221,27.2520426579481));
#446=CARTESIAN_POINT('',(20.5,35.7488360043692,34.1510110782397));
#447=CARTESIAN_POINT('',(0.499999999999939,47.5989443612221,27.2520426579481));
#448=CARTESIAN_POINT('',(0.499999999999939,47.5989443612221,27.2520426579481));
#449=CARTESIAN_POINT('',(0.499999999999939,47.5989443612221,27.2520426579481));
#450=CARTESIAN_POINT('Origin',(0.499999999999972,-0.198510933810777,-54.8479163391144));
#451=CARTESIAN_POINT('',(20.5,47.4004334274113,-27.5958736811663));
#452=CARTESIAN_POINT('',(20.5,-0.198510933810765,-54.8479163391144));
#453=CARTESIAN_POINT('',(20.5,11.7012251564947,-48.0349056746274));
#454=CARTESIAN_POINT('',(0.499999999999972,-0.198510933810777,-54.8479163391144));
#455=CARTESIAN_POINT('',(0.499999999999972,-0.198510933810777,-54.8479163391144));
#456=CARTESIAN_POINT('',(0.49999999999994,47.4004334274113,-27.5958736811663));
#457=CARTESIAN_POINT('',(0.499999999999972,-0.198510933810777,-54.8479163391144));
#458=CARTESIAN_POINT('',(0.49999999999994,47.4004334274113,-27.5958736811663));
#459=CARTESIAN_POINT('Origin',(0.500000000000004,-47.5989443612221,-27.2520426579481));
#460=CARTESIAN_POINT('',(20.5,-35.7488360043692,-34.1510110782397));
#461=CARTESIAN_POINT('',(0.500000000000004,-47.5989443612221,-27.2520426579481));
#462=CARTESIAN_POINT('Origin',(0.49999999999994,47.4996888943167,-0.171915511609084));
#463=CARTESIAN_POINT('',(20.5,47.4996888943167,-0.171915511609092));
#464=CARTESIAN_POINT('',(0.49999999999994,47.4004334274113,-27.5958736811663));
#465=CARTESIAN_POINT('Origin',(49.75,4.27860975452106E-14,0.));
#466=CARTESIAN_POINT('',(49.75,-30.0736,1.84147689894189E-15));
#467=CARTESIAN_POINT('Origin',(49.75,4.27860975452106E-14,0.));
#468=CARTESIAN_POINT('',(50.5,-30.8236,-5.66220346172976E-15));
#469=CARTESIAN_POINT('Origin',(50.5,4.32912643498589E-14,0.));
#470=CARTESIAN_POINT('Origin',(50.5,-37.592,0.));
#471=CARTESIAN_POINT('',(50.5,-36.842,2.25592186870934E-15));
#472=CARTESIAN_POINT('Origin',(50.5,4.32912643498589E-14,0.));
#473=CARTESIAN_POINT('Origin',(32.5,3.11672610383001E-14,0.));
#474=CARTESIAN_POINT('',(14.5,-30.0736,0.));
#475=CARTESIAN_POINT('Origin',(14.5,1.90432577267414E-14,0.));
#476=CARTESIAN_POINT('Origin',(49.75,4.27860975452106E-14,0.));
#477=CARTESIAN_POINT('',(49.75,-37.592,-6.9055383710321E-15));
#478=CARTESIAN_POINT('Origin',(49.75,4.27860975452106E-14,0.));
#479=CARTESIAN_POINT('Origin',(35.5,3.31879282568933E-14,0.));
#480=CARTESIAN_POINT('',(20.5,-37.592,0.));
#481=CARTESIAN_POINT('Origin',(20.5,2.30845921639276E-14,0.));
#482=CARTESIAN_POINT('Origin',(-49.75,-2.42326985381283E-14,0.));
#483=CARTESIAN_POINT('',(-50.5,-38.25,2.34213700336931E-15));
#484=CARTESIAN_POINT('Origin',(-50.5,-2.47378653427765E-14,0.));
#485=CARTESIAN_POINT('',(-49.75,-37.5,-6.88863824520386E-15));
#486=CARTESIAN_POINT('Origin',(-49.75,-2.42326985381283E-14,0.));
#487=CARTESIAN_POINT('Origin',(-50.5,-37.5,0.));
#488=CARTESIAN_POINT('',(-50.5,-44.25,-8.12859312934056E-15));
#489=CARTESIAN_POINT('Origin',(-50.5,-2.47378653427765E-14,0.));
#490=CARTESIAN_POINT('Origin',(-28.5,-9.91963907309358E-15,0.));
#491=CARTESIAN_POINT('',(-6.5,-37.5,0.));
#492=CARTESIAN_POINT('Origin',(-6.50000000000003,4.89858719658939E-15,0.));
#493=CARTESIAN_POINT('Origin',(-49.75,-2.42326985381283E-14,0.));
#494=CARTESIAN_POINT('',(-49.75,-45.,2.75545529808154E-15));
#495=CARTESIAN_POINT('Origin',(-49.75,-2.42326985381283E-14,0.));
#496=CARTESIAN_POINT('Origin',(-25.,-7.56219398473492E-15,0.));
#497=CARTESIAN_POINT('',(0.500000000000012,-45.,0.));
#498=CARTESIAN_POINT('Origin',(0.49999999999998,9.61347737330671E-15,0.));
#499=CARTESIAN_POINT('Origin',(-6.5,-35.625,0.));
#500=CARTESIAN_POINT('',(-6.5,-35.625,0.));
#501=CARTESIAN_POINT('Origin',(-6.50000000000003,4.8985871965894E-15,0.));
#502=CARTESIAN_POINT('Origin',(3.99999999999999,1.19709224616654E-14,0.));
#503=CARTESIAN_POINT('',(14.5,-35.625,0.));
#504=CARTESIAN_POINT('Origin',(14.5,1.90432577267413E-14,0.));
#505=CARTESIAN_POINT('Origin',(14.5,-30.0736,0.));
#506=CARTESIAN_POINT('Origin',(20.5,-47.5,0.));
#507=CARTESIAN_POINT('Origin',(0.500000000000012,-45.,0.));
#508=UNCERTAINTY_MEASURE_WITH_UNIT(LENGTH_MEASURE(0.01),#512,
'DISTANCE_ACCURACY_VALUE',
'Maximum model space distance between geometric entities at asserted c
onnectivities');
#509=UNCERTAINTY_MEASURE_WITH_UNIT(LENGTH_MEASURE(1.E-6),#512,
'DISTANCE_ACCURACY_VALUE',
'Maximum model space distance between geometric entities at asserted c
onnectivities');
#510=(
GEOMETRIC_REPRESENTATION_CONTEXT(3)
GLOBAL_UNCERTAINTY_ASSIGNED_CONTEXT((#508))
GLOBAL_UNIT_ASSIGNED_CONTEXT((#512,#515,#513))
REPRESENTATION_CONTEXT('','3D')
);
#511=(
GEOMETRIC_REPRESENTATION_CONTEXT(3)
GLOBAL_UNCERTAINTY_ASSIGNED_CONTEXT((#509))
GLOBAL_UNIT_ASSIGNED_CONTEXT((#512,#515,#513))
REPRESENTATION_CONTEXT('','3D')
);
#512=(
LENGTH_UNIT()
NAMED_UNIT(*)
SI_UNIT(.MILLI.,.METRE.)
);
#513=(
NAMED_UNIT(*)
SI_UNIT($,.STERADIAN.)
SOLID_ANGLE_UNIT()
);
#514=DIMENSIONAL_EXPONENTS(0.,0.,0.,0.,0.,0.,0.);
#515=(
CONVERSION_BASED_UNIT('degree',#517)
NAMED_UNIT(#514)
PLANE_ANGLE_UNIT()
);
#516=(
NAMED_UNIT(*)
PLANE_ANGLE_UNIT()
SI_UNIT($,.RADIAN.)
);
#517=PLANE_ANGLE_MEASURE_WITH_UNIT(PLANE_ANGLE_MEASURE(0.01745329252),#516);
#518=SHAPE_DEFINITION_REPRESENTATION(#519,#520);
#519=PRODUCT_DEFINITION_SHAPE('',$,#522);
#520=SHAPE_REPRESENTATION('',(#302),#510);
#521=PRODUCT_DEFINITION_CONTEXT('part definition',#526,'design');
#522=PRODUCT_DEFINITION('052102075025','052102075025',#523,#521);
#523=PRODUCT_DEFINITION_FORMATION('',$,#528);
#524=PRODUCT_RELATED_PRODUCT_CATEGORY('052102075025','052102075025',(#528));
#525=APPLICATION_PROTOCOL_DEFINITION('international standard',
'automotive_design',2009,#526);
#526=APPLICATION_CONTEXT(
'Core Data for Automotive Mechanical Design Process');
#527=PRODUCT_CONTEXT('part definition',#526,'mechanical');
#528=PRODUCT('052102075025','052102075025',$,(#527));
#529=PRESENTATION_STYLE_ASSIGNMENT((#530));
#530=SURFACE_STYLE_USAGE(.BOTH.,#531);
#531=SURFACE_SIDE_STYLE($,(#532));
#532=SURFACE_STYLE_FILL_AREA(#533);
#533=FILL_AREA_STYLE($,(#534));
#534=FILL_AREA_STYLE_COLOUR($,#535);
#535=COLOUR_RGB('',0.749019607843137,0.749019607843137,0.749019607843137);
ENDSEC;
END-ISO-10303-21;
