ISO-10303-21;
HEADER;
/* Generated by software containing ST-Developer
 * from STEP Tools, Inc. (www.steptools.com) 
 */

FILE_DESCRIPTION(
/* description */ ('PLASSON CAP-CEMENT PVC 20'),
/* implementation_level */ '2;1');

FILE_NAME(
/* name */ 
'C:\\Dropbox\\KIMPROJECTS-Inventor\\99-16-3568-Processing\\PVC Catalog
 2017\\050700\\050700020.ipt.stp',
/* time_stamp */ '2017-12-07T15:56:51+02:00',
/* author */ ('KIM'),
/* organization */ (''),
/* preprocessor_version */ 'ST-DEVELOPER v15.6',
/* originating_system */ 'Autodesk Inventor 2015',
/* authorisation */ '');

FILE_SCHEMA (('AUTOMOTIVE_DESIGN { 1 0 10303 214 3 1 1 }'));
ENDSEC;

DATA;
#10=MECHANICAL_DESIGN_GEOMETRIC_PRESENTATION_REPRESENTATION('',(#13),#189);
#11=SHAPE_REPRESENTATION_RELATIONSHIP('SRR','None',#198,#12);
#12=ADVANCED_BREP_SHAPE_REPRESENTATION($,(#14),#188);
#13=STYLED_ITEM('',(#207),#14);
#14=MANIFOLD_SOLID_BREP('Solid1',#105);
#15=PLANE('',#116);
#16=PLANE('',#123);
#17=SPHERICAL_SURFACE('',#112,14.4506944444445);
#18=SPHERICAL_SURFACE('',#121,11.0730058618058);
#19=CYLINDRICAL_SURFACE('',#110,12.5);
#20=CYLINDRICAL_SURFACE('',#118,10.);
#21=FACE_BOUND('',#38,.T.);
#22=FACE_BOUND('',#40,.T.);
#23=FACE_BOUND('',#43,.T.);
#24=FACE_BOUND('',#45,.T.);
#25=FACE_BOUND('',#47,.T.);
#26=FACE_BOUND('',#49,.T.);
#27=FACE_BOUND('',#52,.T.);
#28=FACE_OUTER_BOUND('',#37,.T.);
#29=FACE_OUTER_BOUND('',#39,.T.);
#30=FACE_OUTER_BOUND('',#41,.T.);
#31=FACE_OUTER_BOUND('',#42,.T.);
#32=FACE_OUTER_BOUND('',#44,.T.);
#33=FACE_OUTER_BOUND('',#46,.T.);
#34=FACE_OUTER_BOUND('',#48,.T.);
#35=FACE_OUTER_BOUND('',#50,.T.);
#36=FACE_OUTER_BOUND('',#51,.T.);
#37=EDGE_LOOP('',(#77));
#38=EDGE_LOOP('',(#78));
#39=EDGE_LOOP('',(#79));
#40=EDGE_LOOP('',(#80));
#41=EDGE_LOOP('',(#81));
#42=EDGE_LOOP('',(#82));
#43=EDGE_LOOP('',(#83));
#44=EDGE_LOOP('',(#84));
#45=EDGE_LOOP('',(#85));
#46=EDGE_LOOP('',(#86));
#47=EDGE_LOOP('',(#87));
#48=EDGE_LOOP('',(#88));
#49=EDGE_LOOP('',(#89));
#50=EDGE_LOOP('',(#90));
#51=EDGE_LOOP('',(#91));
#52=EDGE_LOOP('',(#92));
#53=CIRCLE('',#108,12.5);
#54=CIRCLE('',#109,12.1866529086954);
#55=CIRCLE('',#111,12.5);
#56=CIRCLE('',#114,10.);
#57=CIRCLE('',#115,10.2);
#58=CIRCLE('',#117,12.3);
#59=CIRCLE('',#119,10.);
#60=CIRCLE('',#122,9.);
#61=VERTEX_POINT('',#162);
#62=VERTEX_POINT('',#164);
#63=VERTEX_POINT('',#167);
#64=VERTEX_POINT('',#171);
#65=VERTEX_POINT('',#173);
#66=VERTEX_POINT('',#176);
#67=VERTEX_POINT('',#179);
#68=VERTEX_POINT('',#183);
#69=EDGE_CURVE('',#61,#61,#53,.T.);
#70=EDGE_CURVE('',#62,#62,#54,.T.);
#71=EDGE_CURVE('',#63,#63,#55,.T.);
#72=EDGE_CURVE('',#64,#64,#56,.T.);
#73=EDGE_CURVE('',#65,#65,#57,.T.);
#74=EDGE_CURVE('',#66,#66,#58,.T.);
#75=EDGE_CURVE('',#67,#67,#59,.T.);
#76=EDGE_CURVE('',#68,#68,#60,.T.);
#77=ORIENTED_EDGE('',*,*,#69,.T.);
#78=ORIENTED_EDGE('',*,*,#70,.T.);
#79=ORIENTED_EDGE('',*,*,#71,.F.);
#80=ORIENTED_EDGE('',*,*,#69,.F.);
#81=ORIENTED_EDGE('',*,*,#70,.F.);
#82=ORIENTED_EDGE('',*,*,#72,.T.);
#83=ORIENTED_EDGE('',*,*,#73,.T.);
#84=ORIENTED_EDGE('',*,*,#74,.F.);
#85=ORIENTED_EDGE('',*,*,#73,.F.);
#86=ORIENTED_EDGE('',*,*,#75,.T.);
#87=ORIENTED_EDGE('',*,*,#72,.F.);
#88=ORIENTED_EDGE('',*,*,#74,.T.);
#89=ORIENTED_EDGE('',*,*,#71,.T.);
#90=ORIENTED_EDGE('',*,*,#76,.F.);
#91=ORIENTED_EDGE('',*,*,#75,.F.);
#92=ORIENTED_EDGE('',*,*,#76,.T.);
#93=TOROIDAL_SURFACE('',#107,10.5,2.);
#94=TOROIDAL_SURFACE('',#113,10.2,0.2);
#95=TOROIDAL_SURFACE('',#120,12.3,0.2);
#96=ADVANCED_FACE('',(#28,#21),#93,.T.);
#97=ADVANCED_FACE('',(#29,#22),#19,.T.);
#98=ADVANCED_FACE('',(#30),#17,.T.);
#99=ADVANCED_FACE('',(#31,#23),#94,.T.);
#100=ADVANCED_FACE('',(#32,#24),#15,.T.);
#101=ADVANCED_FACE('',(#33,#25),#20,.F.);
#102=ADVANCED_FACE('',(#34,#26),#95,.T.);
#103=ADVANCED_FACE('',(#35),#18,.F.);
#104=ADVANCED_FACE('',(#36,#27),#16,.T.);
#105=CLOSED_SHELL('',(#96,#97,#98,#99,#100,#101,#102,#103,#104));
#106=AXIS2_PLACEMENT_3D('placement',#160,#124,#125);
#107=AXIS2_PLACEMENT_3D('',#161,#126,#127);
#108=AXIS2_PLACEMENT_3D('',#163,#128,#129);
#109=AXIS2_PLACEMENT_3D('',#165,#130,#131);
#110=AXIS2_PLACEMENT_3D('',#166,#132,#133);
#111=AXIS2_PLACEMENT_3D('',#168,#134,#135);
#112=AXIS2_PLACEMENT_3D('',#169,#136,#137);
#113=AXIS2_PLACEMENT_3D('',#170,#138,#139);
#114=AXIS2_PLACEMENT_3D('',#172,#140,#141);
#115=AXIS2_PLACEMENT_3D('',#174,#142,#143);
#116=AXIS2_PLACEMENT_3D('',#175,#144,#145);
#117=AXIS2_PLACEMENT_3D('',#177,#146,#147);
#118=AXIS2_PLACEMENT_3D('',#178,#148,#149);
#119=AXIS2_PLACEMENT_3D('',#180,#150,#151);
#120=AXIS2_PLACEMENT_3D('',#181,#152,#153);
#121=AXIS2_PLACEMENT_3D('',#182,#154,#155);
#122=AXIS2_PLACEMENT_3D('',#184,#156,#157);
#123=AXIS2_PLACEMENT_3D('',#185,#158,#159);
#124=DIRECTION('axis',(0.,0.,1.));
#125=DIRECTION('refdir',(1.,0.,0.));
#126=DIRECTION('center_axis',(1.,2.44854618096805E-16,0.));
#127=DIRECTION('ref_axis',(0.,0.,-1.));
#128=DIRECTION('center_axis',(1.,2.44854618096805E-16,0.));
#129=DIRECTION('ref_axis',(2.44249065417534E-16,-1.,1.83697019872103E-16));
#130=DIRECTION('center_axis',(-1.,-2.44854618096805E-16,0.));
#131=DIRECTION('ref_axis',(2.44249065417534E-16,-1.,1.83697019872103E-16));
#132=DIRECTION('center_axis',(1.,2.44854618096805E-16,0.));
#133=DIRECTION('ref_axis',(-2.66453525910038E-16,1.,0.));
#134=DIRECTION('center_axis',(-1.,-2.44854618096805E-16,0.));
#135=DIRECTION('ref_axis',(2.44249065417534E-16,-1.,1.83697019872103E-16));
#136=DIRECTION('center_axis',(0.,0.,1.));
#137=DIRECTION('ref_axis',(1.,0.,0.));
#138=DIRECTION('center_axis',(1.,2.44854618096805E-16,0.));
#139=DIRECTION('ref_axis',(0.,0.,-1.));
#140=DIRECTION('center_axis',(1.,2.44854618096805E-16,0.));
#141=DIRECTION('ref_axis',(2.46330733588707E-16,-1.,1.83697019872103E-16));
#142=DIRECTION('center_axis',(-1.,-2.44854618096805E-16,0.));
#143=DIRECTION('ref_axis',(2.44854618096805E-16,-1.,1.83697019872103E-16));
#144=DIRECTION('center_axis',(-1.,-2.44854618096805E-16,0.));
#145=DIRECTION('ref_axis',(0.,0.,1.));
#146=DIRECTION('center_axis',(1.,2.44854618096805E-16,0.));
#147=DIRECTION('ref_axis',(2.44854618096805E-16,-1.,1.83697019872103E-16));
#148=DIRECTION('center_axis',(1.,2.44854618096805E-16,0.));
#149=DIRECTION('ref_axis',(-2.66453525910038E-16,1.,0.));
#150=DIRECTION('center_axis',(1.,2.44854618096805E-16,0.));
#151=DIRECTION('ref_axis',(0.,0.,-1.));
#152=DIRECTION('center_axis',(1.,2.44854618096805E-16,0.));
#153=DIRECTION('ref_axis',(0.,0.,-1.));
#154=DIRECTION('center_axis',(0.,0.,1.));
#155=DIRECTION('ref_axis',(1.,0.,0.));
#156=DIRECTION('center_axis',(1.,2.44854618096805E-16,0.));
#157=DIRECTION('ref_axis',(0.,0.,-1.));
#158=DIRECTION('center_axis',(-1.,-2.44854618096805E-16,0.));
#159=DIRECTION('ref_axis',(0.,0.,1.));
#160=CARTESIAN_POINT('',(0.,0.,0.));
#161=CARTESIAN_POINT('Origin',(-7.75967119318311,-1.89999132656363E-15,
0.));
#162=CARTESIAN_POINT('',(-7.75967119318312,12.5,-7.65404249467096E-16));
#163=CARTESIAN_POINT('Origin',(-7.75967119318311,-1.89999132656363E-15,
0.));
#164=CARTESIAN_POINT('',(-6.68486797138421,12.1866529086954,-3.7310863692384E-15));
#165=CARTESIAN_POINT('Origin',(-6.6848679713842,-1.92092054580685E-15,0.));
#166=CARTESIAN_POINT('Origin',(-15.6,-3.81973204231015E-15,0.));
#167=CARTESIAN_POINT('',(-23.8,12.5,-3.82702124733548E-15));
#168=CARTESIAN_POINT('Origin',(-23.8,-5.82753991070395E-15,0.));
#169=CARTESIAN_POINT('Origin',(-14.4506944444445,-1.76969966968453E-15,
0.));
#170=CARTESIAN_POINT('Origin',(-23.8,-5.82753991070395E-15,0.));
#171=CARTESIAN_POINT('',(-23.8,9.99999999999999,-6.12323399573676E-16));
#172=CARTESIAN_POINT('Origin',(-23.8,-5.82753991070395E-15,0.));
#173=CARTESIAN_POINT('',(-24.,10.2,-3.12284933782575E-15));
#174=CARTESIAN_POINT('Origin',(-24.,-5.87651083432331E-15,0.));
#175=CARTESIAN_POINT('Origin',(-24.,12.5,0.));
#176=CARTESIAN_POINT('',(-24.,12.3,-7.53157781475622E-16));
#177=CARTESIAN_POINT('Origin',(-24.,-5.87651083432331E-15,0.));
#178=CARTESIAN_POINT('Origin',(-16.,-3.91767388954887E-15,0.));
#179=CARTESIAN_POINT('',(-8.,10.,0.));
#180=CARTESIAN_POINT('Origin',(-8.,-1.95883694477444E-15,0.));
#181=CARTESIAN_POINT('Origin',(-23.8,-5.82753991070395E-15,0.));
#182=CARTESIAN_POINT('Origin',(-14.4506944444445,-1.76969966968453E-15,
0.));
#183=CARTESIAN_POINT('',(-8.,9.,0.));
#184=CARTESIAN_POINT('Origin',(-8.,-1.95883694477444E-15,0.));
#185=CARTESIAN_POINT('Origin',(-8.,10.,0.));
#186=UNCERTAINTY_MEASURE_WITH_UNIT(LENGTH_MEASURE(0.01),#190,
'DISTANCE_ACCURACY_VALUE',
'Maximum model space distance between geometric entities at asserted c
onnectivities');
#187=UNCERTAINTY_MEASURE_WITH_UNIT(LENGTH_MEASURE(1.E-6),#190,
'DISTANCE_ACCURACY_VALUE',
'Maximum model space distance between geometric entities at asserted c
onnectivities');
#188=(
GEOMETRIC_REPRESENTATION_CONTEXT(3)
GLOBAL_UNCERTAINTY_ASSIGNED_CONTEXT((#186))
GLOBAL_UNIT_ASSIGNED_CONTEXT((#190,#193,#191))
REPRESENTATION_CONTEXT('','3D')
);
#189=(
GEOMETRIC_REPRESENTATION_CONTEXT(3)
GLOBAL_UNCERTAINTY_ASSIGNED_CONTEXT((#187))
GLOBAL_UNIT_ASSIGNED_CONTEXT((#190,#193,#191))
REPRESENTATION_CONTEXT('','3D')
);
#190=(
LENGTH_UNIT()
NAMED_UNIT(*)
SI_UNIT(.MILLI.,.METRE.)
);
#191=(
NAMED_UNIT(*)
SI_UNIT($,.STERADIAN.)
SOLID_ANGLE_UNIT()
);
#192=DIMENSIONAL_EXPONENTS(0.,0.,0.,0.,0.,0.,0.);
#193=(
CONVERSION_BASED_UNIT('degree',#195)
NAMED_UNIT(#192)
PLANE_ANGLE_UNIT()
);
#194=(
NAMED_UNIT(*)
PLANE_ANGLE_UNIT()
SI_UNIT($,.RADIAN.)
);
#195=PLANE_ANGLE_MEASURE_WITH_UNIT(PLANE_ANGLE_MEASURE(0.01745329252),#194);
#196=SHAPE_DEFINITION_REPRESENTATION(#197,#198);
#197=PRODUCT_DEFINITION_SHAPE('',$,#200);
#198=SHAPE_REPRESENTATION('',(#106),#188);
#199=PRODUCT_DEFINITION_CONTEXT('part definition',#204,'design');
#200=PRODUCT_DEFINITION('050700020','050700020',#201,#199);
#201=PRODUCT_DEFINITION_FORMATION('',$,#206);
#202=PRODUCT_RELATED_PRODUCT_CATEGORY('050700020','050700020',(#206));
#203=APPLICATION_PROTOCOL_DEFINITION('international standard',
'automotive_design',2009,#204);
#204=APPLICATION_CONTEXT(
'Core Data for Automotive Mechanical Design Process');
#205=PRODUCT_CONTEXT('part definition',#204,'mechanical');
#206=PRODUCT('050700020','050700020',$,(#205));
#207=PRESENTATION_STYLE_ASSIGNMENT((#208));
#208=SURFACE_STYLE_USAGE(.BOTH.,#209);
#209=SURFACE_SIDE_STYLE($,(#210));
#210=SURFACE_STYLE_FILL_AREA(#211);
#211=FILL_AREA_STYLE($,(#212));
#212=FILL_AREA_STYLE_COLOUR($,#213);
#213=COLOUR_RGB('',0.749019607843137,0.749019607843137,0.749019607843137);
ENDSEC;
END-ISO-10303-21;
