ISO-10303-21;
HEADER;
/* Generated by software containing ST-Developer
 * from STEP Tools, Inc. (www.steptools.com) 
 */

FILE_DESCRIPTION(
/* description */ ('PLASSON 90\X\B0 ELBOW-CEMENT PVC 160'),
/* implementation_level */ '2;1');

FILE_NAME(
/* name */ 
'C:\\Dropbox\\KIMPROJECTS-Inventor\\99-16-3568-Processing\\PVC Catalog
 2017\\050500\\050500160.ipt.stp',
/* time_stamp */ '2017-12-07T15:55:45+02:00',
/* author */ ('KIM'),
/* organization */ (''),
/* preprocessor_version */ 'ST-DEVELOPER v15.6',
/* originating_system */ 'Autodesk Inventor 2015',
/* authorisation */ '');

FILE_SCHEMA (('AUTOMOTIVE_DESIGN { 1 0 10303 214 3 1 1 }'));
ENDSEC;

DATA;
#10=MECHANICAL_DESIGN_GEOMETRIC_PRESENTATION_REPRESENTATION('',(#13),#272);
#11=SHAPE_REPRESENTATION_RELATIONSHIP('SRR','None',#281,#12);
#12=ADVANCED_BREP_SHAPE_REPRESENTATION($,(#14),#271);
#13=STYLED_ITEM('',(#290),#14);
#14=MANIFOLD_SOLID_BREP('Solid1',#138);
#15=ELLIPSE('',#154,130.107647738325,92.);
#16=(
BOUNDED_SURFACE()
B_SPLINE_SURFACE(2,2,((#226,#227,#228),(#229,#230,#231),(#232,#233,#234),
(#235,#236,#237),(#238,#239,#240),(#241,#242,#243),(#244,#245,#246),(#247,
#248,#249),(#250,#251,#252)),.UNSPECIFIED.,.F.,.F.,.F.)
B_SPLINE_SURFACE_WITH_KNOTS((3,2,2,2,3),(3,3),(-2.72148117544732,-1.36074058772366,
0.,1.36074058772366,2.72148117544732),(1.5707963267949,3.14159265358979),
 .UNSPECIFIED.)
GEOMETRIC_REPRESENTATION_ITEM()
RATIONAL_B_SPLINE_SURFACE(((1.,0.707106781186548,1.),(0.777339827249664,
0.549662263134617,0.777339827249664),(1.,0.707106781186548,1.),(0.777339827249664,
0.549662263134617,0.777339827249664),(1.,0.707106781186548,1.),(0.777339827249664,
0.549662263134617,0.777339827249664),(1.,0.707106781186548,1.),(0.777339827249664,
0.549662263134617,0.777339827249664),(1.,0.707106781186548,1.)))
REPRESENTATION_ITEM('')
SURFACE()
);
#17=PLANE('',#146);
#18=PLANE('',#150);
#19=PLANE('',#156);
#20=PLANE('',#160);
#21=CYLINDRICAL_SURFACE('',#143,80.);
#22=CYLINDRICAL_SURFACE('',#147,80.);
#23=CYLINDRICAL_SURFACE('',#153,92.);
#24=CYLINDRICAL_SURFACE('',#161,92.);
#25=FACE_BOUND('',#47,.T.);
#26=FACE_BOUND('',#49,.T.);
#27=FACE_BOUND('',#51,.T.);
#28=FACE_BOUND('',#53,.T.);
#29=FACE_BOUND('',#55,.T.);
#30=FACE_BOUND('',#58,.T.);
#31=FACE_BOUND('',#60,.T.);
#32=FACE_BOUND('',#62,.T.);
#33=FACE_BOUND('',#64,.T.);
#34=FACE_BOUND('',#66,.T.);
#35=FACE_OUTER_BOUND('',#46,.T.);
#36=FACE_OUTER_BOUND('',#48,.T.);
#37=FACE_OUTER_BOUND('',#50,.T.);
#38=FACE_OUTER_BOUND('',#52,.T.);
#39=FACE_OUTER_BOUND('',#54,.T.);
#40=FACE_OUTER_BOUND('',#56,.T.);
#41=FACE_OUTER_BOUND('',#57,.T.);
#42=FACE_OUTER_BOUND('',#59,.T.);
#43=FACE_OUTER_BOUND('',#61,.T.);
#44=FACE_OUTER_BOUND('',#63,.T.);
#45=FACE_OUTER_BOUND('',#65,.T.);
#46=EDGE_LOOP('',(#101));
#47=EDGE_LOOP('',(#102));
#48=EDGE_LOOP('',(#103));
#49=EDGE_LOOP('',(#104));
#50=EDGE_LOOP('',(#105));
#51=EDGE_LOOP('',(#106));
#52=EDGE_LOOP('',(#107));
#53=EDGE_LOOP('',(#108));
#54=EDGE_LOOP('',(#109));
#55=EDGE_LOOP('',(#110));
#56=EDGE_LOOP('',(#111,#112));
#57=EDGE_LOOP('',(#113,#114));
#58=EDGE_LOOP('',(#115));
#59=EDGE_LOOP('',(#116));
#60=EDGE_LOOP('',(#117));
#61=EDGE_LOOP('',(#118));
#62=EDGE_LOOP('',(#119));
#63=EDGE_LOOP('',(#120));
#64=EDGE_LOOP('',(#121));
#65=EDGE_LOOP('',(#122,#123));
#66=EDGE_LOOP('',(#124));
#67=CIRCLE('',#141,72.);
#68=CIRCLE('',#142,72.);
#69=CIRCLE('',#144,80.);
#70=CIRCLE('',#145,80.);
#71=CIRCLE('',#148,80.);
#72=CIRCLE('',#149,80.);
#73=CIRCLE('',#151,92.);
#74=CIRCLE('',#152,92.);
#75=CIRCLE('',#155,92.);
#76=CIRCLE('',#158,90.4);
#77=CIRCLE('',#159,92.);
#78=VERTEX_POINT('',#210);
#79=VERTEX_POINT('',#212);
#80=VERTEX_POINT('',#215);
#81=VERTEX_POINT('',#217);
#82=VERTEX_POINT('',#221);
#83=VERTEX_POINT('',#223);
#84=VERTEX_POINT('',#253);
#85=VERTEX_POINT('',#254);
#86=VERTEX_POINT('',#259);
#87=VERTEX_POINT('',#263);
#88=VERTEX_POINT('',#265);
#89=EDGE_CURVE('',#78,#78,#67,.T.);
#90=EDGE_CURVE('',#79,#79,#68,.T.);
#91=EDGE_CURVE('',#80,#80,#69,.T.);
#92=EDGE_CURVE('',#81,#81,#70,.T.);
#93=EDGE_CURVE('',#82,#82,#71,.T.);
#94=EDGE_CURVE('',#83,#83,#72,.T.);
#95=EDGE_CURVE('',#84,#85,#73,.T.);
#96=EDGE_CURVE('',#85,#84,#74,.T.);
#97=EDGE_CURVE('',#84,#85,#15,.T.);
#98=EDGE_CURVE('',#86,#86,#75,.T.);
#99=EDGE_CURVE('',#87,#87,#76,.T.);
#100=EDGE_CURVE('',#88,#88,#77,.T.);
#101=ORIENTED_EDGE('',*,*,#89,.F.);
#102=ORIENTED_EDGE('',*,*,#90,.F.);
#103=ORIENTED_EDGE('',*,*,#91,.T.);
#104=ORIENTED_EDGE('',*,*,#92,.F.);
#105=ORIENTED_EDGE('',*,*,#91,.F.);
#106=ORIENTED_EDGE('',*,*,#89,.T.);
#107=ORIENTED_EDGE('',*,*,#93,.T.);
#108=ORIENTED_EDGE('',*,*,#94,.F.);
#109=ORIENTED_EDGE('',*,*,#93,.F.);
#110=ORIENTED_EDGE('',*,*,#90,.T.);
#111=ORIENTED_EDGE('',*,*,#95,.T.);
#112=ORIENTED_EDGE('',*,*,#96,.T.);
#113=ORIENTED_EDGE('',*,*,#97,.F.);
#114=ORIENTED_EDGE('',*,*,#96,.F.);
#115=ORIENTED_EDGE('',*,*,#98,.T.);
#116=ORIENTED_EDGE('',*,*,#98,.F.);
#117=ORIENTED_EDGE('',*,*,#92,.T.);
#118=ORIENTED_EDGE('',*,*,#99,.T.);
#119=ORIENTED_EDGE('',*,*,#100,.T.);
#120=ORIENTED_EDGE('',*,*,#99,.F.);
#121=ORIENTED_EDGE('',*,*,#94,.T.);
#122=ORIENTED_EDGE('',*,*,#97,.T.);
#123=ORIENTED_EDGE('',*,*,#95,.F.);
#124=ORIENTED_EDGE('',*,*,#100,.F.);
#125=TOROIDAL_SURFACE('',#140,84.,72.);
#126=TOROIDAL_SURFACE('',#157,90.4,1.6);
#127=ADVANCED_FACE('',(#35,#25),#125,.F.);
#128=ADVANCED_FACE('',(#36,#26),#21,.F.);
#129=ADVANCED_FACE('',(#37,#27),#17,.F.);
#130=ADVANCED_FACE('',(#38,#28),#22,.F.);
#131=ADVANCED_FACE('',(#39,#29),#18,.F.);
#132=ADVANCED_FACE('',(#40),#16,.F.);
#133=ADVANCED_FACE('',(#41,#30),#23,.T.);
#134=ADVANCED_FACE('',(#42,#31),#19,.T.);
#135=ADVANCED_FACE('',(#43,#32),#126,.T.);
#136=ADVANCED_FACE('',(#44,#33),#20,.T.);
#137=ADVANCED_FACE('',(#45,#34),#24,.T.);
#138=CLOSED_SHELL('',(#127,#128,#129,#130,#131,#132,#133,#134,#135,#136,
#137));
#139=AXIS2_PLACEMENT_3D('placement',#208,#162,#163);
#140=AXIS2_PLACEMENT_3D('',#209,#164,#165);
#141=AXIS2_PLACEMENT_3D('',#211,#166,#167);
#142=AXIS2_PLACEMENT_3D('',#213,#168,#169);
#143=AXIS2_PLACEMENT_3D('',#214,#170,#171);
#144=AXIS2_PLACEMENT_3D('',#216,#172,#173);
#145=AXIS2_PLACEMENT_3D('',#218,#174,#175);
#146=AXIS2_PLACEMENT_3D('',#219,#176,#177);
#147=AXIS2_PLACEMENT_3D('',#220,#178,#179);
#148=AXIS2_PLACEMENT_3D('',#222,#180,#181);
#149=AXIS2_PLACEMENT_3D('',#224,#182,#183);
#150=AXIS2_PLACEMENT_3D('',#225,#184,#185);
#151=AXIS2_PLACEMENT_3D('',#255,#186,#187);
#152=AXIS2_PLACEMENT_3D('',#256,#188,#189);
#153=AXIS2_PLACEMENT_3D('',#257,#190,#191);
#154=AXIS2_PLACEMENT_3D('',#258,#192,#193);
#155=AXIS2_PLACEMENT_3D('',#260,#194,#195);
#156=AXIS2_PLACEMENT_3D('',#261,#196,#197);
#157=AXIS2_PLACEMENT_3D('',#262,#198,#199);
#158=AXIS2_PLACEMENT_3D('',#264,#200,#201);
#159=AXIS2_PLACEMENT_3D('',#266,#202,#203);
#160=AXIS2_PLACEMENT_3D('',#267,#204,#205);
#161=AXIS2_PLACEMENT_3D('',#268,#206,#207);
#162=DIRECTION('axis',(0.,0.,1.));
#163=DIRECTION('refdir',(1.,0.,0.));
#164=DIRECTION('center_axis',(0.,0.,-1.));
#165=DIRECTION('ref_axis',(-1.,0.,0.));
#166=DIRECTION('center_axis',(6.12323399573677E-17,1.,0.));
#167=DIRECTION('ref_axis',(1.,-6.12323399573677E-17,0.));
#168=DIRECTION('center_axis',(1.,0.,0.));
#169=DIRECTION('ref_axis',(0.,1.,0.));
#170=DIRECTION('center_axis',(6.12323399573677E-17,1.,0.));
#171=DIRECTION('ref_axis',(0.,0.,-1.));
#172=DIRECTION('center_axis',(6.12323399573677E-17,1.,0.));
#173=DIRECTION('ref_axis',(0.,0.,-1.));
#174=DIRECTION('center_axis',(6.12323399573677E-17,1.,0.));
#175=DIRECTION('ref_axis',(0.,0.,-1.));
#176=DIRECTION('center_axis',(6.12323399573677E-17,1.,0.));
#177=DIRECTION('ref_axis',(0.,0.,-1.));
#178=DIRECTION('center_axis',(1.,0.,0.));
#179=DIRECTION('ref_axis',(0.,0.,-1.));
#180=DIRECTION('center_axis',(1.,0.,0.));
#181=DIRECTION('ref_axis',(0.,0.,-1.));
#182=DIRECTION('center_axis',(1.,0.,0.));
#183=DIRECTION('ref_axis',(0.,0.,-1.));
#184=DIRECTION('center_axis',(1.,0.,0.));
#185=DIRECTION('ref_axis',(0.,0.,-1.));
#186=DIRECTION('center_axis',(1.,0.,0.));
#187=DIRECTION('ref_axis',(0.,0.,-1.));
#188=DIRECTION('center_axis',(6.12323399573677E-17,1.,0.));
#189=DIRECTION('ref_axis',(0.,0.,-1.));
#190=DIRECTION('center_axis',(6.12323399573677E-17,1.,0.));
#191=DIRECTION('ref_axis',(-1.,6.12323399573677E-17,0.));
#192=DIRECTION('center_axis',(-0.707106781186548,0.707106781186548,0.));
#193=DIRECTION('ref_axis',(-0.707106781186547,-0.707106781186547,0.));
#194=DIRECTION('center_axis',(6.12323399573677E-17,1.,0.));
#195=DIRECTION('ref_axis',(0.,0.,-1.));
#196=DIRECTION('center_axis',(-6.12323399573677E-17,-1.,0.));
#197=DIRECTION('ref_axis',(0.,0.,1.));
#198=DIRECTION('center_axis',(1.,0.,0.));
#199=DIRECTION('ref_axis',(0.,0.,-1.));
#200=DIRECTION('center_axis',(1.,0.,0.));
#201=DIRECTION('ref_axis',(0.,-1.,1.83697019872103E-16));
#202=DIRECTION('center_axis',(-1.,0.,0.));
#203=DIRECTION('ref_axis',(0.,-1.,1.83697019872103E-16));
#204=DIRECTION('center_axis',(-1.,0.,0.));
#205=DIRECTION('ref_axis',(0.,0.,1.));
#206=DIRECTION('center_axis',(1.,0.,0.));
#207=DIRECTION('ref_axis',(0.,1.,0.));
#208=CARTESIAN_POINT('',(0.,0.,0.));
#209=CARTESIAN_POINT('Origin',(-84.,-84.,0.));
#210=CARTESIAN_POINT('',(8.88178419700125E-15,-84.,72.));
#211=CARTESIAN_POINT('Origin',(0.,-84.,0.));
#212=CARTESIAN_POINT('',(-84.,8.81745695386094E-15,72.));
#213=CARTESIAN_POINT('Origin',(-84.,0.,0.));
#214=CARTESIAN_POINT('Origin',(-1.04094977927525E-14,-170.,0.));
#215=CARTESIAN_POINT('',(-1.49406909495977E-14,-84.,80.));
#216=CARTESIAN_POINT('Origin',(-5.14351655641889E-15,-84.,0.));
#217=CARTESIAN_POINT('',(-2.02066721859313E-14,-170.,80.));
#218=CARTESIAN_POINT('Origin',(-1.04094977927525E-14,-170.,0.));
#219=CARTESIAN_POINT('Origin',(-6.62381392258576E-15,-84.,-3.77702593176532E-15));
#220=CARTESIAN_POINT('Origin',(-170.,0.,0.));
#221=CARTESIAN_POINT('',(-84.,9.79717439317883E-15,80.));
#222=CARTESIAN_POINT('Origin',(-84.,0.,0.));
#223=CARTESIAN_POINT('',(-170.,9.79717439317883E-15,80.));
#224=CARTESIAN_POINT('Origin',(-170.,0.,0.));
#225=CARTESIAN_POINT('Origin',(-84.,1.48029736616688E-15,-3.77702593176532E-15));
#226=CARTESIAN_POINT('Ctrl Pts',(-84.,-84.,37.5233260785875));
#227=CARTESIAN_POINT('Ctrl Pts',(-84.,-84.,37.5233260785875));
#228=CARTESIAN_POINT('Ctrl Pts',(-84.,-84.,37.5233260785875));
#229=CARTESIAN_POINT('Ctrl Pts',(-84.,-53.6333478134982,105.502342073168));
#230=CARTESIAN_POINT('Ctrl Pts',(-53.6333478134982,-53.6333478134982,105.502342073168));
#231=CARTESIAN_POINT('Ctrl Pts',(-53.6333478134982,-84.,105.502342073168));
#232=CARTESIAN_POINT('Ctrl Pts',(-84.,19.1833260932509,89.977775033616));
#233=CARTESIAN_POINT('Ctrl Pts',(19.1833260932509,19.1833260932509,89.977775033616));
#234=CARTESIAN_POINT('Ctrl Pts',(19.1833260932509,-84.,89.977775033616));
#235=CARTESIAN_POINT('Ctrl Pts',(-84.,92.,74.4532079940641));
#236=CARTESIAN_POINT('Ctrl Pts',(92.,92.,74.4532079940641));
#237=CARTESIAN_POINT('Ctrl Pts',(92.,-84.,74.4532079940641));
#238=CARTESIAN_POINT('Ctrl Pts',(-84.,92.,0.));
#239=CARTESIAN_POINT('Ctrl Pts',(92.,92.,0.));
#240=CARTESIAN_POINT('Ctrl Pts',(92.,-84.,0.));
#241=CARTESIAN_POINT('Ctrl Pts',(-84.,92.,-74.4532079940641));
#242=CARTESIAN_POINT('Ctrl Pts',(92.,92.,-74.4532079940641));
#243=CARTESIAN_POINT('Ctrl Pts',(92.,-84.,-74.4532079940641));
#244=CARTESIAN_POINT('Ctrl Pts',(-84.,19.1833260932509,-89.977775033616));
#245=CARTESIAN_POINT('Ctrl Pts',(19.1833260932509,19.1833260932509,-89.977775033616));
#246=CARTESIAN_POINT('Ctrl Pts',(19.1833260932509,-84.,-89.977775033616));
#247=CARTESIAN_POINT('Ctrl Pts',(-84.,-53.6333478134982,-105.502342073168));
#248=CARTESIAN_POINT('Ctrl Pts',(-53.6333478134982,-53.6333478134982,-105.502342073168));
#249=CARTESIAN_POINT('Ctrl Pts',(-53.6333478134982,-84.,-105.502342073168));
#250=CARTESIAN_POINT('Ctrl Pts',(-84.,-84.,-37.5233260785875));
#251=CARTESIAN_POINT('Ctrl Pts',(-84.,-84.,-37.5233260785875));
#252=CARTESIAN_POINT('Ctrl Pts',(-84.,-84.,-37.5233260785875));
#253=CARTESIAN_POINT('',(-84.,-84.,-37.5233260785876));
#254=CARTESIAN_POINT('',(-84.,-84.,37.5233260785876));
#255=CARTESIAN_POINT('Origin',(-84.,0.,0.));
#256=CARTESIAN_POINT('Origin',(-5.14351655641888E-15,-84.,0.));
#257=CARTESIAN_POINT('Origin',(-7.77650717458569E-15,-127.,0.));
#258=CARTESIAN_POINT('Origin',(0.,0.,0.));
#259=CARTESIAN_POINT('',(-92.,-170.,0.));
#260=CARTESIAN_POINT('Origin',(-1.04094977927525E-14,-170.,0.));
#261=CARTESIAN_POINT('Origin',(-92.,-170.,0.));
#262=CARTESIAN_POINT('Origin',(-168.4,0.,0.));
#263=CARTESIAN_POINT('',(-170.,90.4,-5.53540353214604E-15));
#264=CARTESIAN_POINT('Origin',(-170.,0.,0.));
#265=CARTESIAN_POINT('',(-168.4,92.,-2.81668763803891E-14));
#266=CARTESIAN_POINT('Origin',(-168.4,0.,0.));
#267=CARTESIAN_POINT('Origin',(-170.,92.,0.));
#268=CARTESIAN_POINT('Origin',(-127.,0.,0.));
#269=UNCERTAINTY_MEASURE_WITH_UNIT(LENGTH_MEASURE(0.01),#273,
'DISTANCE_ACCURACY_VALUE',
'Maximum model space distance between geometric entities at asserted c
onnectivities');
#270=UNCERTAINTY_MEASURE_WITH_UNIT(LENGTH_MEASURE(1.E-6),#273,
'DISTANCE_ACCURACY_VALUE',
'Maximum model space distance between geometric entities at asserted c
onnectivities');
#271=(
GEOMETRIC_REPRESENTATION_CONTEXT(3)
GLOBAL_UNCERTAINTY_ASSIGNED_CONTEXT((#269))
GLOBAL_UNIT_ASSIGNED_CONTEXT((#273,#276,#274))
REPRESENTATION_CONTEXT('','3D')
);
#272=(
GEOMETRIC_REPRESENTATION_CONTEXT(3)
GLOBAL_UNCERTAINTY_ASSIGNED_CONTEXT((#270))
GLOBAL_UNIT_ASSIGNED_CONTEXT((#273,#276,#274))
REPRESENTATION_CONTEXT('','3D')
);
#273=(
LENGTH_UNIT()
NAMED_UNIT(*)
SI_UNIT(.MILLI.,.METRE.)
);
#274=(
NAMED_UNIT(*)
SI_UNIT($,.STERADIAN.)
SOLID_ANGLE_UNIT()
);
#275=DIMENSIONAL_EXPONENTS(0.,0.,0.,0.,0.,0.,0.);
#276=(
CONVERSION_BASED_UNIT('degree',#278)
NAMED_UNIT(#275)
PLANE_ANGLE_UNIT()
);
#277=(
NAMED_UNIT(*)
PLANE_ANGLE_UNIT()
SI_UNIT($,.RADIAN.)
);
#278=PLANE_ANGLE_MEASURE_WITH_UNIT(PLANE_ANGLE_MEASURE(0.01745329252),#277);
#279=SHAPE_DEFINITION_REPRESENTATION(#280,#281);
#280=PRODUCT_DEFINITION_SHAPE('',$,#283);
#281=SHAPE_REPRESENTATION('',(#139),#271);
#282=PRODUCT_DEFINITION_CONTEXT('part definition',#287,'design');
#283=PRODUCT_DEFINITION('050500160','050500160',#284,#282);
#284=PRODUCT_DEFINITION_FORMATION('',$,#289);
#285=PRODUCT_RELATED_PRODUCT_CATEGORY('050500160','050500160',(#289));
#286=APPLICATION_PROTOCOL_DEFINITION('international standard',
'automotive_design',2009,#287);
#287=APPLICATION_CONTEXT(
'Core Data for Automotive Mechanical Design Process');
#288=PRODUCT_CONTEXT('part definition',#287,'mechanical');
#289=PRODUCT('050500160','050500160',$,(#288));
#290=PRESENTATION_STYLE_ASSIGNMENT((#291));
#291=SURFACE_STYLE_USAGE(.BOTH.,#292);
#292=SURFACE_SIDE_STYLE($,(#293));
#293=SURFACE_STYLE_FILL_AREA(#294);
#294=FILL_AREA_STYLE($,(#295));
#295=FILL_AREA_STYLE_COLOUR($,#296);
#296=COLOUR_RGB('',0.749019607843137,0.749019607843137,0.749019607843137);
ENDSEC;
END-ISO-10303-21;
